  0
SECTION
  2
HEADER
  9
$ACADVER
  1
AC1024
  9
$ACADMAINTVER
 70
     6
  9
$DWGCODEPAGE
  3
ANSI_1252
  9
$INSBASE
 10
0.0
 20
0.0
 30
0.0
  9
$EXTMIN
 10
1.000000000000000E+20
 20
1.000000000000000E+20
 30
1.000000000000000E+20
  9
$EXTMAX
 10
-1.000000000000000E+20
 20
-1.000000000000000E+20
 30
-1.000000000000000E+20
  9
$LIMMIN
 10
0.0
 20
0.0
  9
$LIMMAX
 10
12.0
 20
9.0
  9
$ORTHOMODE
 70
     0
  9
$REGENMODE
 70
     1
  9
$FILLMODE
 70
     1
  9
$QTEXTMODE
 70
     0
  9
$MIRRTEXT
 70
     1
  9
$LTSCALE
 40
1.0
  9
$ATTMODE
 70
     1
  9
$TEXTSIZE
 40
0.2
  9
$TRACEWID
 40
0.05
  9
$TEXTSTYLE
  7
Standard
  9
$CLAYER
  8
0
  9
$CELTYPE
  6
ByLayer
  9
$CECOLOR
 62
   256
  9
$CELTSCALE
 40
1.0
  9
$DISPSILH
 70
     0
  9
$DIMSCALE
 40
1.0
  9
$DIMASZ
 40
0.18
  9
$DIMEXO
 40
0.0625
  9
$DIMDLI
 40
0.38
  9
$DIMRND
 40
0.0
  9
$DIMDLE
 40
0.0
  9
$DIMEXE
 40
0.18
  9
$DIMTP
 40
0.0
  9
$DIMTM
 40
0.0
  9
$DIMTXT
 40
0.18
  9
$DIMCEN
 40
0.09
  9
$DIMTSZ
 40
0.0
  9
$DIMTOL
 70
     0
  9
$DIMLIM
 70
     0
  9
$DIMTIH
 70
     1
  9
$DIMTOH
 70
     1
  9
$DIMSE1
 70
     0
  9
$DIMSE2
 70
     0
  9
$DIMTAD
 70
     0
  9
$DIMZIN
 70
     0
  9
$DIMBLK
  1

  9
$DIMASO
 70
     1
  9
$DIMSHO
 70
     1
  9
$DIMPOST
  1

  9
$DIMAPOST
  1

  9
$DIMALT
 70
     0
  9
$DIMALTD
 70
     2
  9
$DIMALTF
 40
25.4
  9
$DIMLFAC
 40
1.0
  9
$DIMTOFL
 70
     0
  9
$DIMTVP
 40
0.0
  9
$DIMTIX
 70
     0
  9
$DIMSOXD
 70
     0
  9
$DIMSAH
 70
     0
  9
$DIMBLK1
  1

  9
$DIMBLK2
  1

  9
$DIMSTYLE
  2
Standard
  9
$DIMCLRD
 70
     0
  9
$DIMCLRE
 70
     0
  9
$DIMCLRT
 70
     0
  9
$DIMTFAC
 40
1.0
  9
$DIMGAP
 40
0.09
  9
$DIMJUST
 70
     0
  9
$DIMSD1
 70
     0
  9
$DIMSD2
 70
     0
  9
$DIMTOLJ
 70
     1
  9
$DIMTZIN
 70
     0
  9
$DIMALTZ
 70
     0
  9
$DIMALTTZ
 70
     0
  9
$DIMUPT
 70
     0
  9
$DIMDEC
 70
     4
  9
$DIMTDEC
 70
     4
  9
$DIMALTU
 70
     2
  9
$DIMALTTD
 70
     2
  9
$DIMTXSTY
  7
Standard
  9
$DIMAUNIT
 70
     0
  9
$DIMADEC
 70
     0
  9
$DIMALTRND
 40
0.0
  9
$DIMAZIN
 70
     0
  9
$DIMDSEP
 70
    46
  9
$DIMATFIT
 70
     3
  9
$DIMFRAC
 70
     0
  9
$DIMLDRBLK
  1

  9
$DIMLUNIT
 70
     2
  9
$DIMLWD
 70
    -2
  9
$DIMLWE
 70
    -2
  9
$DIMTMOVE
 70
     0
  9
$DIMFXL
 40
1.0
  9
$DIMFXLON
 70
     0
  9
$DIMJOGANG
 40
0.7853981633974483
  9
$DIMTFILL
 70
     0
  9
$DIMTFILLCLR
 70
     0
  9
$DIMARCSYM
 70
     0
  9
$DIMLTYPE
  6

  9
$DIMLTEX1
  6

  9
$DIMLTEX2
  6

  9
$DIMTXTDIRECTION
 70
     0
  9
$LUNITS
 70
     2
  9
$LUPREC
 70
     4
  9
$SKETCHINC
 40
0.1
  9
$FILLETRAD
 40
0.5
  9
$AUNITS
 70
     0
  9
$AUPREC
 70
     0
  9
$MENU
  1
.
  9
$ELEVATION
 40
0.0
  9
$PELEVATION
 40
0.0
  9
$THICKNESS
 40
0.0
  9
$LIMCHECK
 70
     0
  9
$CHAMFERA
 40
0.5
  9
$CHAMFERB
 40
0.5
  9
$CHAMFERC
 40
1.0
  9
$CHAMFERD
 40
0.0
  9
$SKPOLY
 70
     0
  9
$TDCREATE
 40
2458978.538644386
  9
$TDUCREATE
 40
2458978.830311053
  9
$TDUPDATE
 40
2458978.53864441
  9
$TDUUPDATE
 40
2458978.830311076
  9
$TDINDWG
 40
0.0000000116
  9
$TDUSRTIMER
 40
0.0000000116
  9
$USRTIMER
 70
     1
  9
$ANGBASE
 50
0.0
  9
$ANGDIR
 70
     0
  9
$PDMODE
 70
     0
  9
$PDSIZE
 40
0.0
  9
$PLINEWID
 40
0.0
  9
$SPLFRAME
 70
     0
  9
$SPLINETYPE
 70
     6
  9
$SPLINESEGS
 70
     8
  9
$HANDSEED
  5
61
  9
$SURFTAB1
 70
     6
  9
$SURFTAB2
 70
     6
  9
$SURFTYPE
 70
     6
  9
$SURFU
 70
     6
  9
$SURFV
 70
     6
  9
$UCSBASE
  2

  9
$UCSNAME
  2

  9
$UCSORG
 10
0.0
 20
0.0
 30
0.0
  9
$UCSXDIR
 10
1.0
 20
0.0
 30
0.0
  9
$UCSYDIR
 10
0.0
 20
1.0
 30
0.0
  9
$UCSORTHOREF
  2

  9
$UCSORTHOVIEW
 70
     0
  9
$UCSORGTOP
 10
0.0
 20
0.0
 30
0.0
  9
$UCSORGBOTTOM
 10
0.0
 20
0.0
 30
0.0
  9
$UCSORGLEFT
 10
0.0
 20
0.0
 30
0.0
  9
$UCSORGRIGHT
 10
0.0
 20
0.0
 30
0.0
  9
$UCSORGFRONT
 10
0.0
 20
0.0
 30
0.0
  9
$UCSORGBACK
 10
0.0
 20
0.0
 30
0.0
  9
$PUCSBASE
  2

  9
$PUCSNAME
  2

  9
$PUCSORG
 10
0.0
 20
0.0
 30
0.0
  9
$PUCSXDIR
 10
1.0
 20
0.0
 30
0.0
  9
$PUCSYDIR
 10
0.0
 20
1.0
 30
0.0
  9
$PUCSORTHOREF
  2

  9
$PUCSORTHOVIEW
 70
     0
  9
$PUCSORGTOP
 10
0.0
 20
0.0
 30
0.0
  9
$PUCSORGBOTTOM
 10
0.0
 20
0.0
 30
0.0
  9
$PUCSORGLEFT
 10
0.0
 20
0.0
 30
0.0
  9
$PUCSORGRIGHT
 10
0.0
 20
0.0
 30
0.0
  9
$PUCSORGFRONT
 10
0.0
 20
0.0
 30
0.0
  9
$PUCSORGBACK
 10
0.0
 20
0.0
 30
0.0
  9
$USERI1
 70
     0
  9
$USERI2
 70
     0
  9
$USERI3
 70
     0
  9
$USERI4
 70
     0
  9
$USERI5
 70
     0
  9
$USERR1
 40
0.0
  9
$USERR2
 40
0.0
  9
$USERR3
 40
0.0
  9
$USERR4
 40
0.0
  9
$USERR5
 40
0.0
  9
$WORLDVIEW
 70
     1
  9
$SHADEDGE
 70
     3
  9
$SHADEDIF
 70
    70
  9
$TILEMODE
 70
     1
  9
$MAXACTVP
 70
    64
  9
$PINSBASE
 10
0.0
 20
0.0
 30
0.0
  9
$PLIMCHECK
 70
     0
  9
$PEXTMIN
 10
1.000000000000000E+20
 20
1.000000000000000E+20
 30
1.000000000000000E+20
  9
$PEXTMAX
 10
-1.000000000000000E+20
 20
-1.000000000000000E+20
 30
-1.000000000000000E+20
  9
$PLIMMIN
 10
0.0
 20
0.0
  9
$PLIMMAX
 10
12.0
 20
9.0
  9
$UNITMODE
 70
     0
  9
$VISRETAIN
 70
     1
  9
$PLINEGEN
 70
     0
  9
$PSLTSCALE
 70
     1
  9
$TREEDEPTH
 70
  3020
  9
$CMLSTYLE
  2
Standard
  9
$CMLJUST
 70
     0
  9
$CMLSCALE
 40
1.0
  9
$PROXYGRAPHICS
 70
     1
  9
$MEASUREMENT
 70
     0
  9
$CELWEIGHT
370
    -1
  9
$ENDCAPS
280
     0
  9
$JOINSTYLE
280
     0
  9
$LWDISPLAY
290
     1
  9
$INSUNITS
 70
     1
  9
$HYPERLINKBASE
  1

  9
$STYLESHEET
  1

  9
$XEDIT
290
     1
  9
$CEPSNTYPE
380
     0
  9
$PSTYLEMODE
290
     1
  9
$FINGERPRINTGUID
  2
{EE2B0947-0572-4387-9FCA-E26382A92B6E}
  9
$VERSIONGUID
  2
{FAEB1C32-E019-11D5-929B-00C0DF256EC4}
  9
$EXTNAMES
290
     1
  9
$PSVPSCALE
 40
0.0
  9
$OLESTARTUP
290
     0
  9
$SORTENTS
280
   127
  9
$INDEXCTL
280
     0
  9
$HIDETEXT
280
     1
  9
$XCLIPFRAME
280
     2
  9
$HALOGAP
280
     0
  9
$OBSCOLOR
 70
   257
  9
$OBSLTYPE
280
     0
  9
$INTERSECTIONDISPLAY
280
     0
  9
$INTERSECTIONCOLOR
 70
   257
  9
$DIMASSOC
280
     2
  9
$PROJECTNAME
  1

  9
$CAMERADISPLAY
290
     0
  9
$LENSLENGTH
 40
50.0
  9
$CAMERAHEIGHT
 40
0.0
  9
$STEPSPERSEC
 40
2.0
  9
$STEPSIZE
 40
6.0
  9
$3DDWFPREC
 40
2.0
  9
$PSOLWIDTH
 40
0.25
  9
$PSOLHEIGHT
 40
4.0
  9
$LOFTANG1
 40
1.570796326794897
  9
$LOFTANG2
 40
1.570796326794897
  9
$LOFTMAG1
 40
0.0
  9
$LOFTMAG2
 40
0.0
  9
$LOFTPARAM
 70
     7
  9
$LOFTNORMALS
280
     1
  9
$LATITUDE
 40
37.795
  9
$LONGITUDE
 40
-122.394
  9
$NORTHDIRECTION
 40
0.0
  9
$TIMEZONE
 70
 -8000
  9
$LIGHTGLYPHDISPLAY
280
     1
  9
$TILEMODELIGHTSYNCH
280
     1
  9
$CMATERIAL
347
3C
  9
$SOLIDHIST
280
     1
  9
$SHOWHIST
280
     1
  9
$DWFFRAME
280
     2
  9
$DGNFRAME
280
     2
  9
$REALWORLDSCALE
290
     1
  9
$INTERFERECOLOR
 62
   256
  9
$CSHADOW
280
     0
  9
$SHADOWPLANELOCATION
 40
0.0
  0
ENDSEC
  0
SECTION
  2
CLASSES
  0
CLASS
  1
ACDBDICTIONARYWDFLT
  2
AcDbDictionaryWithDefault
  3
ObjectDBX Classes
 90
        0
 91
        4
280
     0
281
     0
  0
CLASS
  1
VISUALSTYLE
  2
AcDbVisualStyle
  3
ObjectDBX Classes
 90
     4095
 91
        4
280
     0
281
     0
  0
CLASS
  1
MATERIAL
  2
AcDbMaterial
  3
ObjectDBX Classes
 90
     1153
 91
        4
280
     0
281
     0
  0
CLASS
  1
SUN
  2
AcDbSun
  3
SCENEOE
 90
     1024
 91
        4
280
     0
281
     0
  0
ENDSEC
  0
SECTION
  2
TABLES
  0
TABLE
  2
VPORT
  5
8
330
0
100
AcDbSymbolTable
 70
     1
  0
VPORT
  5
29
330
8
100
AcDbSymbolTableRecord
100
AcDbViewportTableRecord
  2
*Active
 70
     0
 10
0.0
 20
0.0
 11
1.0
 21
1.0
 12
0.0
 22
0.0
 13
0.0
 23
0.0
 14
0.5
 24
0.5
 15
0.5
 25
0.5
 16
0.0
 26
0.0
 36
1.0
 17
3.083333333333333
 27
-0.3472222222222222
 37
0.0
 40
0.9166666666666665
 41
2.696969696969698
 42
50.0
 43
0.0
 44
0.0
 50
0.0
 51
0.0
 71
     0
 72
   100
 73
     1
 74
     3
 75
     0
 76
     0
 77
     0
 78
     0
281
     0
 65
     1
110
0.0
120
0.0
130
0.0
111
1.0
121
0.0
131
0.0
112
0.0
122
1.0
132
0.0
 79
     0
146
0.0
 60
     3
 61
     5
292
     1
282
     1
141
0.0
142
0.0
 63
   250
361
3F
  0
ENDTAB
  0
TABLE
  2
LTYPE
  5
5
330
0
100
AcDbSymbolTable
 70
     1
  0
LTYPE
  5
14
330
5
100
AcDbSymbolTableRecord
100
AcDbLinetypeTableRecord
  2
ByBlock
 70
     0
  3

 72
    65
 73
     0
 40
0.0
  0
LTYPE
  5
15
330
5
100
AcDbSymbolTableRecord
100
AcDbLinetypeTableRecord
  2
ByLayer
 70
     0
  3

 72
    65
 73
     0
 40
0.0
  0
LTYPE
  5
16
330
5
100
AcDbSymbolTableRecord
100
AcDbLinetypeTableRecord
  2
Continuous
 70
     0
  3
Solid line
 72
    65
 73
     0
 40
0.0
  0
ENDTAB
  0
TABLE
  2
LAYER
  5
2
330
0
100
AcDbSymbolTable
 70
     2
  0
LAYER
  5
10
330
2
100
AcDbSymbolTableRecord
100
AcDbLayerTableRecord
  2
0
 70
     0
 62
     7
  6
Continuous
370
    -3
390
F
347
3E
  0
LAYER
  5
40
330
2
100
AcDbSymbolTableRecord
100
AcDbLayerTableRecord
  2
Layer 1
 70
     0
 62
     7
  6
Continuous
370
    -3
390
F
347
3E
  0
ENDTAB
  0
TABLE
  2
STYLE
  5
3
330
0
100
AcDbSymbolTable
 70
     1
  0
STYLE
  5
11
330
3
100
AcDbSymbolTableRecord
100
AcDbTextStyleTableRecord
  2
Standard
 70
     0
 40
0.0
 41
1.0
 50
0.0
 71
     0
 42
0.2
  3
txt
  4

  0
ENDTAB
  0
TABLE
  2
VIEW
  5
6
330
0
100
AcDbSymbolTable
 70
     0
  0
ENDTAB
  0
TABLE
  2
UCS
  5
7
330
0
100
AcDbSymbolTable
 70
     0
  0
ENDTAB
  0
TABLE
  2
APPID
  5
9
330
0
100
AcDbSymbolTable
 70
     1
  0
APPID
  5
12
330
9
100
AcDbSymbolTableRecord
100
AcDbRegAppTableRecord
  2
ACAD
 70
     0
  0
ENDTAB
  0
TABLE
  2
DIMSTYLE
  5
A
330
0
100
AcDbSymbolTable
 70
     1
100
AcDbDimStyleTable
  0
DIMSTYLE
105
27
330
A
100
AcDbSymbolTableRecord
100
AcDbDimStyleTableRecord
  2
Standard
 70
     0
178
     0
340
11
  0
ENDTAB
  0
TABLE
  2
BLOCK_RECORD
  5
1
330
0
100
AcDbSymbolTable
 70
     2
  0
BLOCK_RECORD
  5
1F
330
1
100
AcDbSymbolTableRecord
100
AcDbBlockTableRecord
  2
*Model_Space
340
22
 70
     0
280
     1
281
     0
  0
BLOCK_RECORD
  5
1B
330
1
100
AcDbSymbolTableRecord
100
AcDbBlockTableRecord
  2
*Paper_Space
340
1E
 70
     0
280
     1
281
     0
  0
BLOCK_RECORD
  5
23
330
1
100
AcDbSymbolTableRecord
100
AcDbBlockTableRecord
  2
*Paper_Space0
340
26
 70
     0
280
     1
281
     0
  0
BLOCK_RECORD
  5
48
330
1
100
AcDbSymbolTableRecord
100
AcDbBlockTableRecord
  2
block 2
340
0
102
{BLKREFS
331
49
102
}
 70
     0
280
     1
281
     0
  0
ENDTAB
  0
ENDSEC
  0
SECTION
  2
BLOCKS
  0
BLOCK
  5
20
330
1F
100
AcDbEntity
  8
0
100
AcDbBlockBegin
  2
*Model_Space
 70
     0
 10
0.0
 20
0.0
 30
0.0
  3
*Model_Space
  1

  0
ENDBLK
  5
21
330
1F
100
AcDbEntity
  8
0
100
AcDbBlockEnd
  0
BLOCK
  5
1C
330
1B
100
AcDbEntity
 67
     1
  8
0
100
AcDbBlockBegin
  2
*Paper_Space
 70
     0
 10
0.0
 20
0.0
 30
0.0
  3
*Paper_Space
  1

  0
ENDBLK
  5
1D
330
1B
100
AcDbEntity
 67
     1
  8
0
100
AcDbBlockEnd
  0
BLOCK
  5
24
330
23
100
AcDbEntity
  8
0
100
AcDbBlockBegin
  2
*Paper_Space0
 70
     0
 10
0.0
 20
0.0
 30
0.0
  3
*Paper_Space0
  1

  0
ENDBLK
  5
25
330
23
100
AcDbEntity
  8
0
100
AcDbBlockEnd
  0
BLOCK
  5
4A
330
48
100
AcDbEntity
  8
0
100
AcDbBlockBegin
  2
block 2
 70
     0
 10
0.0
 20
0.0
 30
0.0
  3
block 2
  1

  0
SPLINE
  5
4C
330
48
100
AcDbEntity
  8
Layer 1
370
     0
100
AcDbSpline
210
0.0
220
0.0
230
1.0
 70
    11
 71
     3
 72
    26
 73
    22
 74
     0
 42
0.0000000001
 43
0.0000000001
 12
1.0
 22
0.0
 32
0.0
 13
1.0
 23
0.0
 33
0.0
 40
0.0
 40
0.0
 40
0.0
 40
0.0
 40
1.0
 40
1.0
 40
1.0
 40
2.0
 40
2.0
 40
2.0
 40
3.0
 40
3.0
 40
3.0
 40
4.0
 40
4.0
 40
4.0
 40
5.0
 40
5.0
 40
5.0
 40
6.0
 40
6.0
 40
6.0
 40
7.0
 40
7.0
 40
7.0
 40
7.0
 10
2.562164226834941
 20
-0.3371902514123677
 30
0.0
 10
2.562164226834941
 20
-0.4174460178911532
 30
0.0
 10
2.540071963248212
 20
-0.4792824281288782
 30
0.0
 10
2.495887436074807
 20
-0.5226994821255933
 30
0.0
 10
2.451702908901375
 20
-0.5661165361222831
 30
0.0
 10
2.389592401100521
 20
-0.5878250631206658
 30
0.0
 10
2.309555912672244
 20
-0.5878250631206658
 30
0.0
 10
2.309555912672244
 20
-0.5878250631206658
 30
0.0
 10
2.153978135850694
 20
-0.5878250631206658
 30
0.0
 10
2.153978135850694
 20
-0.5878250631206658
 30
0.0
 10
2.153978135850694
 20
-0.5878250631206658
 30
0.0
 10
2.153978135850694
 20
-0.1069482983995032
 30
0.0
 10
2.153978135850694
 20
-0.1069482983995032
 30
0.0
 10
2.153978135850694
 20
-0.1069482983995032
 30
0.0
 10
2.32041017617141
 20
-0.1069482983995032
 30
0.0
 10
2.32041017617141
 20
-0.1069482983995032
 30
0.0
 10
2.397596049943357
 20
-0.1069482983995032
 30
0.0
 10
2.457184860163579
 20
-0.1266833229434623
 30
0.0
 10
2.499176606832129
 20
-0.1661533720313804
 30
0.0
 10
2.541168353500653
 20
-0.2056234211193239
 30
0.0
 10
2.562164226834941
 20
-0.2626357142463197
 30
0.0
 10
2.562164226834941
 20
-0.3371902514123677
 30
0.0
  0
SPLINE
  5
4D
330
48
100
AcDbEntity
  8
Layer 1
370
     0
100
AcDbSpline
210
0.0
220
0.0
230
1.0
 70
    11
 71
     3
 72
    26
 73
    22
 74
     0
 42
0.0000000001
 43
0.0000000001
 12
1.0
 22
0.0
 32
0.0
 13
1.0
 23
0.0
 33
0.0
 40
0.0
 40
0.0
 40
0.0
 40
0.0
 40
1.0
 40
1.0
 40
1.0
 40
2.0
 40
2.0
 40
2.0
 40
3.0
 40
3.0
 40
3.0
 40
4.0
 40
4.0
 40
4.0
 40
5.0
 40
5.0
 40
5.0
 40
6.0
 40
6.0
 40
6.0
 40
7.0
 40
7.0
 40
7.0
 40
7.0
 10
2.427308225784549
 20
-0.3417950904726391
 30
0.0
 10
2.427308225784549
 20
-0.2977202023244495
 30
0.0
 10
2.418591923277619
 20
-0.2650477728016843
 30
0.0
 10
2.401159318263783
 20
-0.243777801904293
 30
0.0
 10
2.383726713249972
 20
-0.2225078310069269
 30
0.0
 10
2.35724888865348
 20
-0.2118728455582439
 30
0.0
 10
2.321725844474359
 20
-0.2118728455582439
 30
0.0
 10
2.321725844474359
 20
-0.2118728455582439
 30
0.0
 10
2.28390038076509
 20
-0.2118728455582439
 30
0.0
 10
2.28390038076509
 20
-0.2118728455582439
 30
0.0
 10
2.28390038076509
 20
-0.2118728455582439
 30
0.0
 10
2.28390038076509
 20
-0.4812559305832766
 30
0.0
 10
2.28390038076509
 20
-0.4812559305832766
 30
0.0
 10
2.28390038076509
 20
-0.4812559305832766
 30
0.0
 10
2.312845083429566
 20
-0.4812559305832766
 30
0.0
 10
2.312845083429566
 20
-0.4812559305832766
 30
0.0
 10
2.352315132517484
 20
-0.4812559305832766
 30
0.0
 10
2.381259835181961
 20
-0.4697986524452568
 30
0.0
 10
2.399679191422996
 20
-0.4468840961692169
 30
0.0
 10
2.418098547664032
 20
-0.423969539893177
 30
0.0
 10
2.427308225784549
 20
-0.3889398713276427
 30
0.0
 10
2.427308225784549
 20
-0.3417950904726391
 30
0.0
  0
HATCH
  5
4E
330
48
100
AcDbEntity
  8
Layer 1
 62
     7
420
 16777215
100
AcDbHatch
 10
0.0
 20
0.0
 30
0.0
210
0.0
220
0.0
230
1.0
  2
SOLID
 70
     1
 71
     0
 91
        2
 92
        1
 93
        1
 72
     4
 94
        3
 73
     0
 74
     1
 95
       26
 96
       22
 40
0.0
 40
0.0
 40
0.0
 40
0.0
 40
1.0
 40
1.0
 40
1.0
 40
2.0
 40
2.0
 40
2.0
 40
3.0
 40
3.0
 40
3.0
 40
4.0
 40
4.0
 40
4.0
 40
5.0
 40
5.0
 40
5.0
 40
6.0
 40
6.0
 40
6.0
 40
7.0
 40
7.0
 40
7.0
 40
7.0
 10
2.562164226834941
 20
-0.3371902514123677
 10
2.562164226834941
 20
-0.4174460178911532
 10
2.540071963248212
 20
-0.4792824281288782
 10
2.495887436074807
 20
-0.5226994821255933
 10
2.451702908901375
 20
-0.5661165361222831
 10
2.389592401100521
 20
-0.5878250631206658
 10
2.309555912672244
 20
-0.5878250631206658
 10
2.309555912672244
 20
-0.5878250631206658
 10
2.153978135850694
 20
-0.5878250631206658
 10
2.153978135850694
 20
-0.5878250631206658
 10
2.153978135850694
 20
-0.5878250631206658
 10
2.153978135850694
 20
-0.1069482983995032
 10
2.153978135850694
 20
-0.1069482983995032
 10
2.153978135850694
 20
-0.1069482983995032
 10
2.32041017617141
 20
-0.1069482983995032
 10
2.32041017617141
 20
-0.1069482983995032
 10
2.397596049943357
 20
-0.1069482983995032
 10
2.457184860163579
 20
-0.1266833229434623
 10
2.499176606832129
 20
-0.1661533720313804
 10
2.541168353500653
 20
-0.2056234211193239
 10
2.562164226834941
 20
-0.2626357142463197
 10
2.562164226834941
 20
-0.3371902514123677
 97
        0
 97
        0
 92
        1
 93
        1
 72
     4
 94
        3
 73
     0
 74
     1
 95
       26
 96
       22
 40
0.0
 40
0.0
 40
0.0
 40
0.0
 40
1.0
 40
1.0
 40
1.0
 40
2.0
 40
2.0
 40
2.0
 40
3.0
 40
3.0
 40
3.0
 40
4.0
 40
4.0
 40
4.0
 40
5.0
 40
5.0
 40
5.0
 40
6.0
 40
6.0
 40
6.0
 40
7.0
 40
7.0
 40
7.0
 40
7.0
 10
2.427308225784549
 20
-0.3417950904726391
 10
2.427308225784549
 20
-0.2977202023244495
 10
2.418591923277619
 20
-0.2650477728016843
 10
2.401159318263783
 20
-0.243777801904293
 10
2.383726713249972
 20
-0.2225078310069269
 10
2.35724888865348
 20
-0.2118728455582439
 10
2.321725844474359
 20
-0.2118728455582439
 10
2.321725844474359
 20
-0.2118728455582439
 10
2.28390038076509
 20
-0.2118728455582439
 10
2.28390038076509
 20
-0.2118728455582439
 10
2.28390038076509
 20
-0.2118728455582439
 10
2.28390038076509
 20
-0.4812559305832766
 10
2.28390038076509
 20
-0.4812559305832766
 10
2.28390038076509
 20
-0.4812559305832766
 10
2.312845083429566
 20
-0.4812559305832766
 10
2.312845083429566
 20
-0.4812559305832766
 10
2.352315132517484
 20
-0.4812559305832766
 10
2.381259835181961
 20
-0.4697986524452568
 10
2.399679191422996
 20
-0.4468840961692169
 10
2.418098547664032
 20
-0.423969539893177
 10
2.427308225784549
 20
-0.3889398713276427
 10
2.427308225784549
 20
-0.3417950904726391
 97
        0
 97
        0
 75
     2
 76
     1
 98
        0
  0
POLYLINE
  5
4F
330
48
100
AcDbEntity
  8
Layer 1
370
     0
100
AcDb2dPolyline
 66
     1
 10
0.0
 20
0.0
 30
0.0
  0
VERTEX
  5
50
330
4F
100
AcDbEntity
  8
Layer 1
370
     0
100
AcDbVertex
100
AcDb2dVertex
 10
2.86049201452445
 20
-0.5878250631206658
 30
0.0
  0
VERTEX
  5
51
330
4F
100
AcDbEntity
  8
Layer 1
370
     0
100
AcDbVertex
100
AcDb2dVertex
 10
2.730569769610055
 20
-0.5878250631206658
 30
0.0
  0
VERTEX
  5
52
330
4F
100
AcDbEntity
  8
Layer 1
370
     0
100
AcDbVertex
100
AcDb2dVertex
 10
2.730569769610055
 20
-0.2131885138611677
 30
0.0
  0
VERTEX
  5
53
330
4F
100
AcDbEntity
  8
Layer 1
370
     0
100
AcDbVertex
100
AcDb2dVertex
 10
2.6131463735735
 20
-0.2131885138611677
 30
0.0
  0
VERTEX
  5
54
330
4F
100
AcDbEntity
  8
Layer 1
370
     0
100
AcDbVertex
100
AcDb2dVertex
 10
2.6131463735735
 20
-0.1069482983995032
 30
0.0
  0
VERTEX
  5
55
330
4F
100
AcDbEntity
  8
Layer 1
370
     0
100
AcDbVertex
100
AcDb2dVertex
 10
2.977586493485281
 20
-0.1069482983995032
 30
0.0
  0
VERTEX
  5
56
330
4F
100
AcDbEntity
  8
Layer 1
370
     0
100
AcDbVertex
100
AcDb2dVertex
 10
2.977586493485281
 20
-0.2131885138611677
 30
0.0
  0
VERTEX
  5
57
330
4F
100
AcDbEntity
  8
Layer 1
370
     0
100
AcDbVertex
100
AcDb2dVertex
 10
2.86049201452445
 20
-0.2131885138611677
 30
0.0
  0
VERTEX
  5
58
330
4F
100
AcDbEntity
  8
Layer 1
370
     0
100
AcDbVertex
100
AcDb2dVertex
 10
2.86049201452445
 20
-0.5878250631206658
 30
0.0
  0
SEQEND
  5
59
330
4F
100
AcDbEntity
  8
Layer 1
370
     0
  0
HATCH
  5
5A
330
48
100
AcDbEntity
  8
Layer 1
 62
     7
420
 16777215
100
AcDbHatch
 10
0.0
 20
0.0
 30
0.0
210
0.0
220
0.0
230
1.0
  2
SOLID
 70
     1
 71
     0
 91
        1
 92
        1
 93
        8
 72
     1
 10
2.86049201452445
 20
-0.5878250631206658
 11
2.730569769610055
 21
-0.5878250631206658
 72
     1
 10
2.730569769610055
 20
-0.5878250631206658
 11
2.730569769610055
 21
-0.2131885138611678
 72
     1
 10
2.730569769610055
 20
-0.2131885138611677
 11
2.6131463735735
 21
-0.2131885138611677
 72
     1
 10
2.6131463735735
 20
-0.2131885138611677
 11
2.6131463735735
 21
-0.1069482983995032
 72
     1
 10
2.6131463735735
 20
-0.1069482983995032
 11
2.977586493485281
 21
-0.1069482983995032
 72
     1
 10
2.977586493485281
 20
-0.1069482983995032
 11
2.977586493485281
 21
-0.2131885138611677
 72
     1
 10
2.977586493485281
 20
-0.2131885138611677
 11
2.86049201452445
 21
-0.2131885138611677
 72
     1
 10
2.86049201452445
 20
-0.2131885138611677
 11
2.86049201452445
 21
-0.5878250631206658
 97
        0
 75
     2
 76
     1
 98
        0
  0
SPLINE
  5
5B
330
48
100
AcDbEntity
  8
Layer 1
370
     0
100
AcDbSpline
210
0.0
220
0.0
230
1.0
 70
    11
 71
     3
 72
    62
 73
    58
 74
     0
 42
0.0000000001
 43
0.0000000001
 12
1.0
 22
0.0
 32
0.0
 13
1.0
 23
0.0
 33
0.0
 40
0.0
 40
0.0
 40
0.0
 40
0.0
 40
1.0
 40
1.0
 40
1.0
 40
2.0
 40
2.0
 40
2.0
 40
3.0
 40
3.0
 40
3.0
 40
4.0
 40
4.0
 40
4.0
 40
5.0
 40
5.0
 40
5.0
 40
6.0
 40
6.0
 40
6.0
 40
7.0
 40
7.0
 40
7.0
 40
8.0
 40
8.0
 40
8.0
 40
9.0
 40
9.0
 40
9.0
 40
10.0
 40
10.0
 40
10.0
 40
11.0
 40
11.0
 40
11.0
 40
12.0
 40
12.0
 40
12.0
 40
13.0
 40
13.0
 40
13.0
 40
14.0
 40
14.0
 40
14.0
 40
15.0
 40
15.0
 40
15.0
 40
16.0
 40
16.0
 40
16.0
 40
17.0
 40
17.0
 40
17.0
 40
18.0
 40
18.0
 40
18.0
 40
19.0
 40
19.0
 40
19.0
 40
19.0
 10
3.255850339555106
 20
-0.5878250631206658
 30
0.0
 10
3.255850339555106
 20
-0.5878250631206658
 30
0.0
 10
3.157504133911061
 20
-0.2414753823741699
 30
0.0
 10
3.157504133911061
 20
-0.2414753823741699
 30
0.0
 10
3.157504133911061
 20
-0.2414753823741699
 30
0.0
 10
3.154543880229463
 20
-0.2414753823741699
 30
0.0
 10
3.154543880229463
 20
-0.2414753823741699
 30
0.0
 10
3.15914871928971
 20
-0.300461177955564
 30
0.0
 10
3.161451138819833
 20
-0.3462902905076438
 30
0.0
 10
3.161451138819833
 20
-0.3789627200304342
 30
0.0
 10
3.161451138819833
 20
-0.3789627200304342
 30
0.0
 10
3.161451138819833
 20
-0.5878250631206658
 30
0.0
 10
3.161451138819833
 20
-0.5878250631206658
 30
0.0
 10
3.161451138819833
 20
-0.5878250631206658
 30
0.0
 10
3.0463301623134
 20
-0.5878250631206658
 30
0.0
 10
3.0463301623134
 20
-0.5878250631206658
 30
0.0
 10
3.0463301623134
 20
-0.5878250631206658
 30
0.0
 10
3.0463301623134
 20
-0.1069482983995032
 30
0.0
 10
3.0463301623134
 20
-0.1069482983995032
 30
0.0
 10
3.0463301623134
 20
-0.1069482983995032
 30
0.0
 10
3.219340544148786
 20
-0.1069482983995032
 30
0.0
 10
3.219340544148786
 20
-0.1069482983995032
 30
0.0
 10
3.219340544148786
 20
-0.1069482983995032
 30
0.0
 10
3.319660252247255
 20
-0.4483642230100284
 30
0.0
 10
3.319660252247255
 20
-0.4483642230100284
 30
0.0
 10
3.319660252247255
 20
-0.4483642230100284
 30
0.0
 10
3.322291588853103
 20
-0.4483642230100284
 30
0.0
 10
3.322291588853103
 20
-0.4483642230100284
 30
0.0
 10
3.322291588853103
 20
-0.4483642230100284
 30
0.0
 10
3.420637794497174
 20
-0.1069482983995032
 30
0.0
 10
3.420637794497174
 20
-0.1069482983995032
 30
0.0
 10
3.420637794497174
 20
-0.1069482983995032
 30
0.0
 10
3.593977093408284
 20
-0.1069482983995032
 30
0.0
 10
3.593977093408284
 20
-0.1069482983995032
 30
0.0
 10
3.593977093408284
 20
-0.1069482983995032
 30
0.0
 10
3.593977093408284
 20
-0.5878250631206658
 30
0.0
 10
3.593977093408284
 20
-0.5878250631206658
 30
0.0
 10
3.593977093408284
 20
-0.5878250631206658
 30
0.0
 10
3.47458019491733
 20
-0.5878250631206658
 30
0.0
 10
3.47458019491733
 20
-0.5878250631206658
 30
0.0
 10
3.47458019491733
 20
-0.5878250631206658
 30
0.0
 10
3.47458019491733
 20
-0.3769892175760358
 30
0.0
 10
3.47458019491733
 20
-0.3769892175760358
 30
0.0
 10
3.47458019491733
 20
-0.3660253150516029
 30
0.0
 10
3.474744653455193
 20
-0.3538553832494876
 30
0.0
 10
3.475073570530943
 20
-0.3404794221697153
 30
0.0
 10
3.475402487606667
 20
-0.3271034610899177
 30
0.0
 10
3.476882614447454
 20
-0.2943213925418857
 30
0.0
 10
3.479513951053327
 20
-0.2421332165256445
 30
0.0
 10
3.479513951053327
 20
-0.2421332165256445
 30
0.0
 10
3.476553697371729
 20
-0.2421332165256445
 30
0.0
 10
3.476553697371729
 20
-0.2421332165256445
 30
0.0
 10
3.476553697371729
 20
-0.2421332165256445
 30
0.0
 10
3.379523160030607
 20
-0.5878250631206658
 30
0.0
 10
3.379523160030607
 20
-0.5878250631206658
 30
0.0
 10
3.379523160030607
 20
-0.5878250631206658
 30
0.0
 10
3.255850339555106
 20
-0.5878250631206658
 30
0.0
 10
3.255850339555106
 20
-0.5878250631206658
 30
0.0
  0
HATCH
  5
5C
330
48
100
AcDbEntity
  8
Layer 1
 62
     7
420
 16777215
100
AcDbHatch
 10
0.0
 20
0.0
 30
0.0
210
0.0
220
0.0
230
1.0
  2
SOLID
 70
     1
 71
     0
 91
        1
 92
        1
 93
        1
 72
     4
 94
        3
 73
     0
 74
     1
 95
       62
 96
       58
 40
0.0
 40
0.0
 40
0.0
 40
0.0
 40
1.0
 40
1.0
 40
1.0
 40
2.0
 40
2.0
 40
2.0
 40
3.0
 40
3.0
 40
3.0
 40
4.0
 40
4.0
 40
4.0
 40
5.0
 40
5.0
 40
5.0
 40
6.0
 40
6.0
 40
6.0
 40
7.0
 40
7.0
 40
7.0
 40
8.0
 40
8.0
 40
8.0
 40
9.0
 40
9.0
 40
9.0
 40
10.0
 40
10.0
 40
10.0
 40
11.0
 40
11.0
 40
11.0
 40
12.0
 40
12.0
 40
12.0
 40
13.0
 40
13.0
 40
13.0
 40
14.0
 40
14.0
 40
14.0
 40
15.0
 40
15.0
 40
15.0
 40
16.0
 40
16.0
 40
16.0
 40
17.0
 40
17.0
 40
17.0
 40
18.0
 40
18.0
 40
18.0
 40
19.0
 40
19.0
 40
19.0
 40
19.0
 10
3.255850339555106
 20
-0.5878250631206658
 10
3.255850339555106
 20
-0.5878250631206658
 10
3.157504133911061
 20
-0.2414753823741699
 10
3.157504133911061
 20
-0.2414753823741699
 10
3.157504133911061
 20
-0.2414753823741699
 10
3.154543880229463
 20
-0.2414753823741699
 10
3.154543880229463
 20
-0.2414753823741699
 10
3.15914871928971
 20
-0.300461177955564
 10
3.161451138819833
 20
-0.3462902905076438
 10
3.161451138819833
 20
-0.3789627200304342
 10
3.161451138819833
 20
-0.3789627200304342
 10
3.161451138819833
 20
-0.5878250631206658
 10
3.161451138819833
 20
-0.5878250631206658
 10
3.161451138819833
 20
-0.5878250631206658
 10
3.0463301623134
 20
-0.5878250631206658
 10
3.0463301623134
 20
-0.5878250631206658
 10
3.0463301623134
 20
-0.5878250631206658
 10
3.0463301623134
 20
-0.1069482983995032
 10
3.0463301623134
 20
-0.1069482983995032
 10
3.0463301623134
 20
-0.1069482983995032
 10
3.219340544148786
 20
-0.1069482983995032
 10
3.219340544148786
 20
-0.1069482983995032
 10
3.219340544148786
 20
-0.1069482983995032
 10
3.319660252247255
 20
-0.4483642230100284
 10
3.319660252247255
 20
-0.4483642230100284
 10
3.319660252247255
 20
-0.4483642230100284
 10
3.322291588853103
 20
-0.4483642230100284
 10
3.322291588853103
 20
-0.4483642230100284
 10
3.322291588853103
 20
-0.4483642230100284
 10
3.420637794497174
 20
-0.1069482983995032
 10
3.420637794497174
 20
-0.1069482983995032
 10
3.420637794497174
 20
-0.1069482983995032
 10
3.593977093408284
 20
-0.1069482983995032
 10
3.593977093408284
 20
-0.1069482983995032
 10
3.593977093408284
 20
-0.1069482983995032
 10
3.593977093408284
 20
-0.5878250631206658
 10
3.593977093408284
 20
-0.5878250631206658
 10
3.593977093408284
 20
-0.5878250631206658
 10
3.47458019491733
 20
-0.5878250631206658
 10
3.47458019491733
 20
-0.5878250631206658
 10
3.47458019491733
 20
-0.5878250631206658
 10
3.47458019491733
 20
-0.3769892175760358
 10
3.47458019491733
 20
-0.3769892175760358
 10
3.47458019491733
 20
-0.3660253150516029
 10
3.474744653455193
 20
-0.3538553832494876
 10
3.475073570530943
 20
-0.3404794221697153
 10
3.475402487606667
 20
-0.3271034610899177
 10
3.476882614447454
 20
-0.2943213925418857
 10
3.479513951053327
 20
-0.2421332165256445
 10
3.479513951053327
 20
-0.2421332165256445
 10
3.476553697371729
 20
-0.2421332165256445
 10
3.476553697371729
 20
-0.2421332165256445
 10
3.476553697371729
 20
-0.2421332165256445
 10
3.379523160030607
 20
-0.5878250631206658
 10
3.379523160030607
 20
-0.5878250631206658
 10
3.379523160030607
 20
-0.5878250631206658
 10
3.255850339555106
 20
-0.5878250631206658
 10
3.255850339555106
 20
-0.5878250631206658
 97
        0
 97
        0
 75
     2
 76
     1
 98
        0
  0
SPLINE
  5
5D
330
48
100
AcDbEntity
  8
Layer 1
370
     0
100
AcDbSpline
210
0.0
220
0.0
230
1.0
 70
    11
 71
     3
 72
    89
 73
    85
 74
     0
 42
0.0000000001
 43
0.0000000001
 12
1.0
 22
0.0
 32
0.0
 13
1.0
 23
0.0
 33
0.0
 40
0.0
 40
0.0
 40
0.0
 40
0.0
 40
1.0
 40
1.0
 40
1.0
 40
2.0
 40
2.0
 40
2.0
 40
3.0
 40
3.0
 40
3.0
 40
4.0
 40
4.0
 40
4.0
 40
5.0
 40
5.0
 40
5.0
 40
6.0
 40
6.0
 40
6.0
 40
7.0
 40
7.0
 40
7.0
 40
8.0
 40
8.0
 40
8.0
 40
9.0
 40
9.0
 40
9.0
 40
10.0
 40
10.0
 40
10.0
 40
11.0
 40
11.0
 40
11.0
 40
12.0
 40
12.0
 40
12.0
 40
13.0
 40
13.0
 40
13.0
 40
14.0
 40
14.0
 40
14.0
 40
15.0
 40
15.0
 40
15.0
 40
16.0
 40
16.0
 40
16.0
 40
17.0
 40
17.0
 40
17.0
 40
18.0
 40
18.0
 40
18.0
 40
19.0
 40
19.0
 40
19.0
 40
20.0
 40
20.0
 40
20.0
 40
21.0
 40
21.0
 40
21.0
 40
22.0
 40
22.0
 40
22.0
 40
23.0
 40
23.0
 40
23.0
 40
24.0
 40
24.0
 40
24.0
 40
25.0
 40
25.0
 40
25.0
 40
26.0
 40
26.0
 40
26.0
 40
27.0
 40
27.0
 40
27.0
 40
28.0
 40
28.0
 40
28.0
 40
28.0
 10
3.998545096559458
 20
-0.2112150114067693
 30
0.0
 10
3.998545096559458
 20
-0.2410368262732037
 30
0.0
 10
3.989445057464208
 20
-0.2666375386677121
 30
0.0
 10
3.971244979273655
 20
-0.2880171485903449
 30
0.0
 10
3.953044901083103
 20
-0.3093967585129778
 30
0.0
 10
3.9267315350245
 20
-0.3249106805850361
 30
0.0
 10
3.892304881097819
 20
-0.3345589148065199
 30
0.0
 10
3.892304881097819
 20
-0.3345589148065199
 30
0.0
 10
3.892304881097819
 20
-0.3365324172609184
 30
0.0
 10
3.892304881097819
 20
-0.3365324172609184
 30
0.0
 10
3.972560647576579
 20
-0.3466192075833684
 30
0.0
 10
4.012688530815972
 20
-0.3845543103178796
 30
0.0
 10
4.012688530815972
 20
-0.4503377254644015
 30
0.0
 10
4.012688530815972
 20
-0.4950704477640405
 30
0.0
 10
3.994981828239032
 20
-0.5302645748674372
 30
0.0
 10
3.959568423085152
 20
-0.5559201067746168
 30
0.0
 10
3.924155017931273
 20
-0.5815756386817459
 30
0.0
 10
3.874981915109224
 20
-0.5944034046353105
 30
0.0
 10
3.812049114619059
 20
-0.5944034046353105
 30
0.0
 10
3.786174304661421
 20
-0.5944034046353105
 30
0.0
 10
3.762218177645536
 20
-0.5925395412061536
 30
0.0
 10
3.740180733571454
 20
-0.5888118143478398
 30
0.0
 10
3.718143289497372
 20
-0.5850840874895766
 30
0.0
 10
3.694296801506753
 20
-0.5782864679243983
 30
0.0
 10
3.668641269599599
 20
-0.5684189556524567
 30
0.0
 10
3.668641269599599
 20
-0.5684189556524567
 30
0.0
 10
3.668641269599599
 20
-0.4605341548121183
 30
0.0
 10
3.668641269599599
 20
-0.4605341548121183
 30
0.0
 10
3.689691962446507
 20
-0.4712787792860682
 30
0.0
 10
3.711126391881736
 20
-0.4792276086162575
 30
0.0
 10
3.732944557905335
 20
-0.4843806428027366
 30
0.0
 10
3.754762723928934
 20
-0.4895336769892158
 30
0.0
 10
3.774881485061264
 20
-0.4921101940824681
 30
0.0
 10
3.793300841302274
 20
-0.4921101940824681
 30
0.0
 10
3.821806987865784
 20
-0.4921101940824681
 30
0.0
 10
3.842583583149563
 20
-0.4881083696610504
 30
0.0
 10
3.855630627153636
 20
-0.4801047208182151
 30
0.0
 10
3.868677671157684
 20
-0.4721010719753798
 30
0.0
 10
3.875201193159707
 20
-0.4595474035849191
 30
0.0
 10
3.875201193159707
 20
-0.442443715646833
 30
0.0
 10
3.875201193159707
 20
-0.4292870326175185
 30
0.0
 10
3.871802383377144
 20
-0.4191454227824225
 30
0.0
 10
3.865004763812016
 20
-0.4120188861415701
 30
0.0
 10
3.858207144246863
 20
-0.4048923495006925
 30
0.0
 10
3.84724324172243
 20
-0.3995200372637049
 30
0.0
 10
3.832113056238743
 20
-0.395901949430658
 30
0.0
 10
3.81698287075503
 20
-0.392283861597611
 30
0.0
 10
3.797247846211071
 20
-0.3904748176810749
 30
0.0
 10
3.772907982606865
 20
-0.3904748176810749
 30
0.0
 10
3.772907982606865
 20
-0.3904748176810749
 30
0.0
 10
3.743305445790914
 20
-0.3904748176810749
 30
0.0
 10
3.743305445790914
 20
-0.3904748176810749
 30
0.0
 10
3.743305445790914
 20
-0.3904748176810749
 30
0.0
 10
3.743305445790914
 20
-0.2927864461884787
 30
0.0
 10
3.743305445790914
 20
-0.2927864461884787
 30
0.0
 10
3.743305445790914
 20
-0.2927864461884787
 30
0.0
 10
3.773565816758314
 20
-0.2927864461884787
 30
0.0
 10
3.773565816758314
 20
-0.2927864461884787
 30
0.0
 10
3.839568509955345
 20
-0.2927864461884787
 30
0.0
 10
3.87256985655386
 20
-0.2759020363008504
 30
0.0
 10
3.87256985655386
 20
-0.2421332165256445
 30
0.0
 10
3.87256985655386
 20
-0.2294150895972962
 30
0.0
 10
3.867690919930485
 20
-0.2199861334262954
 30
0.0
 10
3.857933046683759
 20
-0.213846348012617
 30
0.0
 10
3.848175173437009
 20
-0.2077065625989639
 30
0.0
 10
3.83507330992034
 20
-0.2046366698921247
 30
0.0
 10
3.818627456133703
 20
-0.2046366698921247
 30
0.0
 10
3.787928529065312
 20
-0.2046366698921247
 30
0.0
 10
3.756133211744504
 20
-0.2149427382650831
 30
0.0
 10
3.72324150417123
 20
-0.2355548750109746
 30
0.0
 10
3.72324150417123
 20
-0.2355548750109746
 30
0.0
 10
3.669299103751074
 20
-0.1487207670175697
 30
0.0
 10
3.669299103751074
 20
-0.1487207670175697
 30
0.0
 10
3.69473535760772
 20
-0.1311785229784921
 30
0.0
 10
3.720774626103245
 20
-0.1186796741006522
 30
0.0
 10
3.747416909237573
 20
-0.11122422038405
 30
0.0
 10
3.774059192371927
 20
-0.1037687666674224
 30
0.0
 10
3.804593660902431
 20
-0.1000410398091339
 30
0.0
 10
3.839020314829137
 20
-0.1000410398091339
 30
0.0
 10
3.888796432290014
 20
-0.1000410398091339
 30
0.0
 10
3.92782792527694
 20
-0.1099085520811008
 30
0.0
 10
3.956114793789943
 20
-0.1296435766250599
 30
0.0
 10
3.98440166230297
 20
-0.149378601169019
 30
0.0
 10
3.998545096559458
 20
-0.1765690794296056
 30
0.0
 10
3.998545096559458
 20
-0.2112150114067693
 30
0.0
  0
HATCH
  5
5E
330
48
100
AcDbEntity
  8
Layer 1
 62
     7
420
 16777215
100
AcDbHatch
 10
0.0
 20
0.0
 30
0.0
210
0.0
220
0.0
230
1.0
  2
SOLID
 70
     1
 71
     0
 91
        1
 92
        1
 93
        1
 72
     4
 94
        3
 73
     0
 74
     1
 95
       89
 96
       85
 40
0.0
 40
0.0
 40
0.0
 40
0.0
 40
1.0
 40
1.0
 40
1.0
 40
2.0
 40
2.0
 40
2.0
 40
3.0
 40
3.0
 40
3.0
 40
4.0
 40
4.0
 40
4.0
 40
5.0
 40
5.0
 40
5.0
 40
6.0
 40
6.0
 40
6.0
 40
7.0
 40
7.0
 40
7.0
 40
8.0
 40
8.0
 40
8.0
 40
9.0
 40
9.0
 40
9.0
 40
10.0
 40
10.0
 40
10.0
 40
11.0
 40
11.0
 40
11.0
 40
12.0
 40
12.0
 40
12.0
 40
13.0
 40
13.0
 40
13.0
 40
14.0
 40
14.0
 40
14.0
 40
15.0
 40
15.0
 40
15.0
 40
16.0
 40
16.0
 40
16.0
 40
17.0
 40
17.0
 40
17.0
 40
18.0
 40
18.0
 40
18.0
 40
19.0
 40
19.0
 40
19.0
 40
20.0
 40
20.0
 40
20.0
 40
21.0
 40
21.0
 40
21.0
 40
22.0
 40
22.0
 40
22.0
 40
23.0
 40
23.0
 40
23.0
 40
24.0
 40
24.0
 40
24.0
 40
25.0
 40
25.0
 40
25.0
 40
26.0
 40
26.0
 40
26.0
 40
27.0
 40
27.0
 40
27.0
 40
28.0
 40
28.0
 40
28.0
 40
28.0
 10
3.998545096559458
 20
-0.2112150114067693
 10
3.998545096559458
 20
-0.2410368262732037
 10
3.989445057464208
 20
-0.2666375386677121
 10
3.971244979273655
 20
-0.2880171485903449
 10
3.953044901083103
 20
-0.3093967585129778
 10
3.9267315350245
 20
-0.3249106805850361
 10
3.892304881097819
 20
-0.3345589148065199
 10
3.892304881097819
 20
-0.3345589148065199
 10
3.892304881097819
 20
-0.3365324172609184
 10
3.892304881097819
 20
-0.3365324172609184
 10
3.972560647576579
 20
-0.3466192075833684
 10
4.012688530815972
 20
-0.3845543103178796
 10
4.012688530815972
 20
-0.4503377254644015
 10
4.012688530815972
 20
-0.4950704477640405
 10
3.994981828239032
 20
-0.5302645748674372
 10
3.959568423085152
 20
-0.5559201067746168
 10
3.924155017931273
 20
-0.5815756386817459
 10
3.874981915109224
 20
-0.5944034046353105
 10
3.812049114619059
 20
-0.5944034046353105
 10
3.786174304661421
 20
-0.5944034046353105
 10
3.762218177645536
 20
-0.5925395412061536
 10
3.740180733571454
 20
-0.5888118143478398
 10
3.718143289497372
 20
-0.5850840874895766
 10
3.694296801506753
 20
-0.5782864679243983
 10
3.668641269599599
 20
-0.5684189556524567
 10
3.668641269599599
 20
-0.5684189556524567
 10
3.668641269599599
 20
-0.4605341548121183
 10
3.668641269599599
 20
-0.4605341548121183
 10
3.689691962446507
 20
-0.4712787792860682
 10
3.711126391881736
 20
-0.4792276086162575
 10
3.732944557905335
 20
-0.4843806428027366
 10
3.754762723928934
 20
-0.4895336769892158
 10
3.774881485061264
 20
-0.4921101940824681
 10
3.793300841302274
 20
-0.4921101940824681
 10
3.821806987865784
 20
-0.4921101940824681
 10
3.842583583149563
 20
-0.4881083696610504
 10
3.855630627153636
 20
-0.4801047208182151
 10
3.868677671157684
 20
-0.4721010719753798
 10
3.875201193159707
 20
-0.4595474035849191
 10
3.875201193159707
 20
-0.442443715646833
 10
3.875201193159707
 20
-0.4292870326175185
 10
3.871802383377144
 20
-0.4191454227824225
 10
3.865004763812016
 20
-0.4120188861415701
 10
3.858207144246863
 20
-0.4048923495006925
 10
3.84724324172243
 20
-0.3995200372637049
 10
3.832113056238743
 20
-0.395901949430658
 10
3.81698287075503
 20
-0.392283861597611
 10
3.797247846211071
 20
-0.3904748176810749
 10
3.772907982606865
 20
-0.3904748176810749
 10
3.772907982606865
 20
-0.3904748176810749
 10
3.743305445790914
 20
-0.3904748176810749
 10
3.743305445790914
 20
-0.3904748176810749
 10
3.743305445790914
 20
-0.3904748176810749
 10
3.743305445790914
 20
-0.2927864461884787
 10
3.743305445790914
 20
-0.2927864461884787
 10
3.743305445790914
 20
-0.2927864461884787
 10
3.773565816758314
 20
-0.2927864461884787
 10
3.773565816758314
 20
-0.2927864461884787
 10
3.839568509955345
 20
-0.2927864461884787
 10
3.87256985655386
 20
-0.2759020363008504
 10
3.87256985655386
 20
-0.2421332165256445
 10
3.87256985655386
 20
-0.2294150895972962
 10
3.867690919930485
 20
-0.2199861334262954
 10
3.857933046683759
 20
-0.213846348012617
 10
3.848175173437009
 20
-0.2077065625989639
 10
3.83507330992034
 20
-0.2046366698921247
 10
3.818627456133703
 20
-0.2046366698921247
 10
3.787928529065312
 20
-0.2046366698921247
 10
3.756133211744504
 20
-0.2149427382650831
 10
3.72324150417123
 20
-0.2355548750109746
 10
3.72324150417123
 20
-0.2355548750109746
 10
3.669299103751074
 20
-0.1487207670175697
 10
3.669299103751074
 20
-0.1487207670175697
 10
3.69473535760772
 20
-0.1311785229784921
 10
3.720774626103245
 20
-0.1186796741006522
 10
3.747416909237573
 20
-0.11122422038405
 10
3.774059192371927
 20
-0.1037687666674224
 10
3.804593660902431
 20
-0.1000410398091339
 10
3.839020314829137
 20
-0.1000410398091339
 10
3.888796432290014
 20
-0.1000410398091339
 10
3.92782792527694
 20
-0.1099085520811008
 10
3.956114793789943
 20
-0.1296435766250599
 10
3.98440166230297
 20
-0.149378601169019
 10
3.998545096559458
 20
-0.1765690794296056
 10
3.998545096559458
 20
-0.2112150114067693
 97
        0
 97
        0
 75
     2
 76
     1
 98
        0
  0
ENDBLK
  5
4B
330
48
100
AcDbEntity
  8
0
100
AcDbBlockEnd
  0
ENDSEC
  0
SECTION
  2
ENTITIES
  0
POLYLINE
  5
41
330
1F
100
AcDbEntity
  8
Layer 1
 62
     7
420
 16777215
370
    35
100
AcDb2dPolyline
 66
     1
 10
0.0
 20
0.0
 30
0.0
  0
VERTEX
  5
42
330
41
100
AcDbEntity
  8
Layer 1
 62
     7
420
 16777215
370
    35
100
AcDbVertex
100
AcDb2dVertex
 10
4.284722222222222
 20
-0.7569444444444444
 30
0.0
  0
VERTEX
  5
43
330
41
100
AcDbEntity
  8
Layer 1
 62
     7
420
 16777215
370
    35
100
AcDbVertex
100
AcDb2dVertex
 10
1.895833333333333
 20
-0.7569444444444444
 30
0.0
  0
VERTEX
  5
44
330
41
100
AcDbEntity
  8
Layer 1
 62
     7
420
 16777215
370
    35
100
AcDbVertex
100
AcDb2dVertex
 10
1.895833333333333
 20
0.0625
 30
0.0
  0
VERTEX
  5
45
330
41
100
AcDbEntity
  8
Layer 1
 62
     7
420
 16777215
370
    35
100
AcDbVertex
100
AcDb2dVertex
 10
4.284722222222222
 20
0.0625
 30
0.0
  0
VERTEX
  5
46
330
41
100
AcDbEntity
  8
Layer 1
 62
     7
420
 16777215
370
    35
100
AcDbVertex
100
AcDb2dVertex
 10
4.284722222222222
 20
-0.7569444444444444
 30
0.0
  0
SEQEND
  5
47
330
41
100
AcDbEntity
  8
Layer 1
 62
     7
420
 16777215
370
    35
  0
INSERT
  5
49
330
1F
100
AcDbEntity
  8
Layer 1
100
AcDbBlockReference
  2
block 2
 10
0.0
 20
0.0
 30
0.0
  0
ENDSEC
  0
SECTION
  2
OBJECTS
  0
DICTIONARY
  5
C
330
0
100
AcDbDictionary
281
     1
  3
ACAD_GROUP
350
D
  3
ACAD_LAYOUT
350
1A
  3
ACAD_MATERIAL
350
3B
  3
ACAD_MLEADERSTYLE
350
60
  3
ACAD_MLINESTYLE
350
17
  3
ACAD_PLOTSETTINGS
350
19
  3
ACAD_PLOTSTYLENAME
350
E
  3
ACAD_TABLESTYLE
350
5F
  3
ACAD_VISUALSTYLE
350
2A
  0
SUN
  5
3F
330
29
100
AcDbSun
 90
        1
290
     0
 63
     7
421
 16777215
 40
1.0
291
     1
 91
  2455826
 92
 54000000
292
     0
 70
     2
 71
   256
280
     1
  0
DICTIONARY
  5
D
102
{ACAD_REACTORS
330
C
102
}
330
C
100
AcDbDictionary
281
     1
  0
DICTIONARY
  5
1A
102
{ACAD_REACTORS
330
C
102
}
330
C
100
AcDbDictionary
281
     1
  3
Layout1
350
1E
  3
Layout2
350
26
  3
Model
350
22
  0
DICTIONARY
  5
3B
102
{ACAD_REACTORS
330
C
102
}
330
C
100
AcDbDictionary
281
     1
  3
ByBlock
350
3D
  3
ByLayer
350
3C
  3
Global
350
3E
  0
DICTIONARY
  5
60
102
{ACAD_REACTORS
330
C
102
}
330
C
100
AcDbDictionary
281
     1
  0
DICTIONARY
  5
17
102
{ACAD_REACTORS
330
C
102
}
330
C
100
AcDbDictionary
281
     1
  3
Standard
350
18
  0
DICTIONARY
  5
19
102
{ACAD_REACTORS
330
C
102
}
330
C
100
AcDbDictionary
281
     1
  0
ACDBDICTIONARYWDFLT
  5
E
102
{ACAD_REACTORS
330
C
102
}
330
C
100
AcDbDictionary
281
     1
  3
Normal
350
F
100
AcDbDictionaryWithDefault
340
F
  0
DICTIONARY
  5
5F
102
{ACAD_REACTORS
330
C
102
}
330
C
100
AcDbDictionary
281
     1
  0
DICTIONARY
  5
2A
102
{ACAD_REACTORS
330
C
102
}
330
C
100
AcDbDictionary
281
     1
  3
2dWireframe
350
2F
  3
3D Hidden
350
31
  3
3dWireframe
350
30
  3
Basic
350
32
  3
Brighten
350
36
  3
ColorChange
350
3A
  3
Conceptual
350
34
  3
Dim
350
35
  3
Facepattern
350
39
  3
Flat
350
2B
  3
FlatWithEdges
350
2C
  3
Gouraud
350
2D
  3
GouraudWithEdges
350
2E
  3
Linepattern
350
38
  3
Realistic
350
33
  3
Thicken
350
37
  0
LAYOUT
  5
1E
102
{ACAD_REACTORS
330
1A
102
}
330
1A
100
AcDbPlotSettings
  1

  2
none_device
  4

  6

 40
0.0
 41
0.0
 42
0.0
 43
0.0
 44
0.0
 45
0.0
 46
0.0
 47
0.0
 48
0.0
 49
0.0
140
0.0
141
0.0
142
1.0
143
1.0
 70
   688
 72
     0
 73
     0
 74
     5
  7

 75
    16
 76
     0
 77
     2
 78
   300
147
1.0
148
0.0
149
0.0
100
AcDbLayout
  1
Layout1
 70
     1
 71
     1
 10
0.0
 20
0.0
 11
12.0
 21
9.0
 12
0.0
 22
0.0
 32
0.0
 14
1.000000000000000E+20
 24
1.000000000000000E+20
 34
1.000000000000000E+20
 15
-1.000000000000000E+20
 25
-1.000000000000000E+20
 35
-1.000000000000000E+20
146
0.0
 13
0.0
 23
0.0
 33
0.0
 16
1.0
 26
0.0
 36
0.0
 17
0.0
 27
1.0
 37
0.0
 76
     0
330
1B
  0
LAYOUT
  5
26
102
{ACAD_REACTORS
330
1A
102
}
330
1A
100
AcDbPlotSettings
  1

  2
none_device
  4

  6

 40
0.0
 41
0.0
 42
0.0
 43
0.0
 44
0.0
 45
0.0
 46
0.0
 47
0.0
 48
0.0
 49
0.0
140
0.0
141
0.0
142
1.0
143
1.0
 70
   688
 72
     0
 73
     0
 74
     5
  7

 75
    16
 76
     0
 77
     2
 78
   300
147
1.0
148
0.0
149
0.0
100
AcDbLayout
  1
Layout2
 70
     1
 71
     2
 10
0.0
 20
0.0
 11
0.0
 21
0.0
 12
0.0
 22
0.0
 32
0.0
 14
0.0
 24
0.0
 34
0.0
 15
0.0
 25
0.0
 35
0.0
146
0.0
 13
0.0
 23
0.0
 33
0.0
 16
1.0
 26
0.0
 36
0.0
 17
0.0
 27
1.0
 37
0.0
 76
     0
330
23
  0
LAYOUT
  5
22
102
{ACAD_REACTORS
330
1A
102
}
330
1A
100
AcDbPlotSettings
  1

  2
none_device
  4

  6

 40
0.0
 41
0.0
 42
0.0
 43
0.0
 44
0.0
 45
0.0
 46
0.0
 47
0.0
 48
0.0
 49
0.0
140
0.0
141
0.0
142
1.0
143
1.0
 70
  1712
 72
     0
 73
     0
 74
     0
  7

 75
     0
 76
     0
 77
     2
 78
   300
147
1.0
148
0.0
149
0.0
100
AcDbLayout
  1
Model
 70
     1
 71
     0
 10
0.0
 20
0.0
 11
12.0
 21
9.0
 12
0.0
 22
0.0
 32
0.0
 14
1.000000000000000E+20
 24
1.000000000000000E+20
 34
1.000000000000000E+20
 15
-1.000000000000000E+20
 25
-1.000000000000000E+20
 35
-1.000000000000000E+20
146
0.0
 13
0.0
 23
0.0
 33
0.0
 16
1.0
 26
0.0
 36
0.0
 17
0.0
 27
1.0
 37
0.0
 76
     0
330
1F
331
29
  0
MATERIAL
  5
3D
102
{ACAD_REACTORS
330
3B
102
}
330
3B
100
AcDbMaterial
  1
ByBlock
 72
     1
 94
      127
  0
MATERIAL
  5
3C
102
{ACAD_REACTORS
330
3B
102
}
330
3B
100
AcDbMaterial
  1
ByLayer
 72
     1
 94
      127
  0
MATERIAL
  5
3E
102
{ACAD_REACTORS
330
3B
102
}
330
3B
100
AcDbMaterial
  1
Global
 72
     1
 94
      127
  0
MLINESTYLE
  5
18
102
{ACAD_REACTORS
330
17
102
}
330
17
100
AcDbMlineStyle
  2
Standard
 70
     0
  3

 62
   256
 51
90.0
 52
90.0
 71
     2
 49
0.5
 62
   256
  6
BYLAYER
 49
-0.5
 62
   256
  6
BYLAYER
  0
ACDBPLACEHOLDER
  5
F
102
{ACAD_REACTORS
330
E
102
}
330
E
  0
VISUALSTYLE
  5
2F
102
{ACAD_REACTORS
330
2A
102
}
330
2A
100
AcDbVisualStyle
  2
2dWireframe
 70
     4
177
     2
291
     0
 71
     0
176
     1
 72
     2
176
     1
 73
     0
176
     1
 90
        0
176
     1
 40
-0.6
176
     1
 41
-30.0
176
     1
 62
     5
 63
     7
421
 16777215
176
     1
 74
     1
176
     1
 91
        4
176
     1
 64
     7
176
     1
 65
   257
176
     1
 75
     1
176
     1
175
     1
176
     1
 42
1.0
176
     1
 92
        0
176
     1
 66
   257
176
     1
 43
1.0
176
     1
 76
     1
176
     1
 77
     6
176
     1
 78
     2
176
     1
 67
     7
176
     1
 79
     5
176
     1
170
     0
176
     1
171
     0
176
     1
290
     0
176
     1
 93
        1
176
     1
 44
0.0
176
     1
173
     0
176
     1
  0
VISUALSTYLE
  5
31
102
{ACAD_REACTORS
330
2A
102
}
330
2A
100
AcDbVisualStyle
  2
3D Hidden
 70
     6
177
     2
291
     0
 71
     1
176
     1
 72
     2
176
     1
 73
     2
176
     1
 90
        0
176
     1
 40
-0.6
176
     1
 41
-30.0
176
     1
 62
     5
 63
     7
421
 16777215
176
     1
 74
     2
176
     1
 91
        2
176
     1
 64
     7
176
     1
 65
   257
176
     1
 75
     2
176
     1
175
     1
176
     1
 42
40.0
176
     1
 92
        0
176
     1
 66
   257
176
     1
 43
1.0
176
     1
 76
     1
176
     1
 77
     6
176
     1
 78
     2
176
     1
 67
     7
176
     1
 79
     3
176
     1
170
     0
176
     1
171
     0
176
     1
290
     0
176
     1
 93
        1
176
     1
 44
0.0
176
     1
173
     0
176
     1
  0
VISUALSTYLE
  5
30
102
{ACAD_REACTORS
330
2A
102
}
330
2A
100
AcDbVisualStyle
  2
3dWireframe
 70
     5
177
     2
291
     0
 71
     0
176
     1
 72
     2
176
     1
 73
     0
176
     1
 90
        0
176
     1
 40
-0.6
176
     1
 41
-30.0
176
     1
 62
     5
 63
     7
421
 16777215
176
     1
 74
     1
176
     1
 91
        4
176
     1
 64
     7
176
     1
 65
   257
176
     1
 75
     1
176
     1
175
     1
176
     1
 42
1.0
176
     1
 92
        0
176
     1
 66
   257
176
     1
 43
1.0
176
     1
 76
     1
176
     1
 77
     6
176
     1
 78
     2
176
     1
 67
     7
176
     1
 79
     5
176
     1
170
     0
176
     1
171
     0
176
     1
290
     0
176
     1
 93
        1
176
     1
 44
0.0
176
     1
173
     0
176
     1
  0
VISUALSTYLE
  5
32
102
{ACAD_REACTORS
330
2A
102
}
330
2A
100
AcDbVisualStyle
  2
Basic
 70
     7
177
     2
291
     1
 71
     1
176
     1
 72
     0
176
     1
 73
     1
176
     1
 90
        0
176
     1
 40
-0.6
176
     1
 41
-30.0
176
     1
 62
     5
 63
     7
421
 16777215
176
     1
 74
     0
176
     1
 91
        4
176
     1
 64
     7
176
     1
 65
   257
176
     1
 75
     1
176
     1
175
     1
176
     1
 42
1.0
176
     1
 92
        8
176
     1
 66
     7
176
     1
 43
1.0
176
     1
 76
     1
176
     1
 77
     6
176
     1
 78
     2
176
     1
 67
     7
176
     1
 79
     5
176
     1
170
     0
176
     1
171
     0
176
     1
290
     0
176
     1
 93
        1
176
     1
 44
0.0
176
     1
173
     0
176
     1
  0
VISUALSTYLE
  5
36
102
{ACAD_REACTORS
330
2A
102
}
330
2A
100
AcDbVisualStyle
  2
Brighten
 70
    12
177
     2
291
     1
 71
     2
176
     1
 72
     2
176
     1
 73
     0
176
     1
 90
        0
176
     1
 40
-0.6
176
     1
 41
-30.0
176
     1
 62
     5
 63
     7
421
 16777215
176
     1
 74
     1
176
     1
 91
        4
176
     1
 64
     7
176
     1
 65
   257
176
     1
 75
     1
176
     1
175
     1
176
     1
 42
1.0
176
     1
 92
        8
176
     1
 66
     7
176
     1
 43
1.0
176
     1
 76
     1
176
     1
 77
     6
176
     1
 78
     2
176
     1
 67
     7
176
     1
 79
     5
176
     1
170
     0
176
     1
171
     0
176
     1
290
     0
176
     1
 93
        1
176
     1
 44
50.0
176
     1
173
     0
176
     1
  0
VISUALSTYLE
  5
3A
102
{ACAD_REACTORS
330
2A
102
}
330
2A
100
AcDbVisualStyle
  2
ColorChange
 70
    16
177
     2
291
     1
 71
     2
176
     1
 72
     2
176
     1
 73
     3
176
     1
 90
        0
176
     1
 40
-0.6
176
     1
 41
-30.0
176
     1
 62
     5
 63
     8
421
  8421504
176
     1
 74
     1
176
     1
 91
        4
176
     1
 64
     7
176
     1
 65
   257
176
     1
 75
     1
176
     1
175
     1
176
     1
 42
1.0
176
     1
 92
        8
176
     1
 66
     8
424
  8421504
176
     1
 43
1.0
176
     1
 76
     1
176
     1
 77
     6
176
     1
 78
     2
176
     1
 67
     7
176
     1
 79
     5
176
     1
170
     0
176
     1
171
     0
176
     1
290
     0
176
     1
 93
        1
176
     1
 44
0.0
176
     1
173
     0
176
     1
  0
VISUALSTYLE
  5
34
102
{ACAD_REACTORS
330
2A
102
}
330
2A
100
AcDbVisualStyle
  2
Conceptual
 70
     9
177
     2
291
     0
 71
     3
176
     1
 72
     2
176
     1
 73
     0
176
     1
 90
        0
176
     1
 40
-0.6
176
     1
 41
-30.0
176
     1
 62
     5
 63
     7
421
 16777215
176
     1
 74
     2
176
     1
 91
        2
176
     1
 64
     7
176
     1
 65
   257
176
     1
 75
     1
176
     1
175
     1
176
     1
 42
40.0
176
     1
 92
        8
176
     1
 66
     7
176
     1
 43
1.0
176
     1
 76
     1
176
     1
 77
     6
176
     1
 78
     2
176
     1
 67
     7
176
     1
 79
     3
176
     1
170
     0
176
     1
171
     0
176
     1
290
     0
176
     1
 93
        1
176
     1
 44
0.0
176
     1
173
     0
176
     1
  0
VISUALSTYLE
  5
35
102
{ACAD_REACTORS
330
2A
102
}
330
2A
100
AcDbVisualStyle
  2
Dim
 70
    11
177
     2
291
     1
 71
     2
176
     1
 72
     2
176
     1
 73
     0
176
     1
 90
        0
176
     1
 40
-0.6
176
     1
 41
-30.0
176
     1
 62
     5
 63
     7
421
 16777215
176
     1
 74
     1
176
     1
 91
        4
176
     1
 64
     7
176
     1
 65
   257
176
     1
 75
     1
176
     1
175
     1
176
     1
 42
1.0
176
     1
 92
        8
176
     1
 66
     7
176
     1
 43
1.0
176
     1
 76
     1
176
     1
 77
     6
176
     1
 78
     2
176
     1
 67
     7
176
     1
 79
     5
176
     1
170
     0
176
     1
171
     0
176
     1
290
     0
176
     1
 93
        1
176
     1
 44
-50.0
176
     1
173
     0
176
     1
  0
VISUALSTYLE
  5
39
102
{ACAD_REACTORS
330
2A
102
}
330
2A
100
AcDbVisualStyle
  2
Facepattern
 70
    15
177
     2
291
     1
 71
     2
176
     1
 72
     2
176
     1
 73
     0
176
     1
 90
        0
176
     1
 40
-0.6
176
     1
 41
-30.0
176
     1
 62
     5
 63
     7
421
 16777215
176
     1
 74
     1
176
     1
 91
        4
176
     1
 64
     7
176
     1
 65
   257
176
     1
 75
     1
176
     1
175
     1
176
     1
 42
1.0
176
     1
 92
        8
176
     1
 66
     7
176
     1
 43
1.0
176
     1
 76
     1
176
     1
 77
     6
176
     1
 78
     2
176
     1
 67
     7
176
     1
 79
     5
176
     1
170
     0
176
     1
171
     0
176
     1
290
     0
176
     1
 93
        1
176
     1
 44
0.0
176
     1
173
     0
176
     1
  0
VISUALSTYLE
  5
2B
102
{ACAD_REACTORS
330
2A
102
}
330
2A
100
AcDbVisualStyle
  2
Flat
 70
     0
177
     2
291
     1
 71
     2
176
     1
 72
     1
176
     1
 73
     1
176
     1
 90
        2
176
     1
 40
-0.6
176
     1
 41
30.0
176
     1
 62
     5
 63
     7
421
 16777215
176
     1
 74
     0
176
     1
 91
        4
176
     1
 64
     7
176
     1
 65
   257
176
     1
 75
     1
176
     1
175
     1
176
     1
 42
1.0
176
     1
 92
        8
176
     1
 66
     7
176
     1
 43
1.0
176
     1
 76
     1
176
     1
 77
     6
176
     1
 78
     2
176
     1
 67
     7
176
     1
 79
     5
176
     1
170
     0
176
     1
171
     0
176
     1
290
     0
176
     1
 93
       13
176
     1
 44
0.0
176
     1
173
     0
176
     1
  0
VISUALSTYLE
  5
2C
102
{ACAD_REACTORS
330
2A
102
}
330
2A
100
AcDbVisualStyle
  2
FlatWithEdges
 70
     1
177
     2
291
     1
 71
     2
176
     1
 72
     1
176
     1
 73
     1
176
     1
 90
        2
176
     1
 40
-0.6
176
     1
 41
30.0
176
     1
 62
     5
 63
     7
421
 16777215
176
     1
 74
     1
176
     1
 91
        4
176
     1
 64
     7
176
     1
 65
   257
176
     1
 75
     1
176
     1
175
     1
176
     1
 42
1.0
176
     1
 92
        0
176
     1
 66
   257
176
     1
 43
1.0
176
     1
 76
     1
176
     1
 77
     6
176
     1
 78
     2
176
     1
 67
     7
176
     1
 79
     5
176
     1
170
     0
176
     1
171
     0
176
     1
290
     0
176
     1
 93
       13
176
     1
 44
0.0
176
     1
173
     0
176
     1
  0
VISUALSTYLE
  5
2D
102
{ACAD_REACTORS
330
2A
102
}
330
2A
100
AcDbVisualStyle
  2
Gouraud
 70
     2
177
     2
291
     1
 71
     2
176
     1
 72
     2
176
     1
 73
     1
176
     1
 90
        2
176
     1
 40
-0.6
176
     1
 41
30.0
176
     1
 62
     5
 63
     7
421
 16777215
176
     1
 74
     0
176
     1
 91
        4
176
     1
 64
     7
176
     1
 65
   257
176
     1
 75
     1
176
     1
175
     1
176
     1
 42
1.0
176
     1
 92
        0
176
     1
 66
     7
176
     1
 43
1.0
176
     1
 76
     1
176
     1
 77
     6
176
     1
 78
     2
176
     1
 67
     7
176
     1
 79
     5
176
     1
170
     0
176
     1
171
     0
176
     1
290
     0
176
     1
 93
       13
176
     1
 44
0.0
176
     1
173
     0
176
     1
  0
VISUALSTYLE
  5
2E
102
{ACAD_REACTORS
330
2A
102
}
330
2A
100
AcDbVisualStyle
  2
GouraudWithEdges
 70
     3
177
     2
291
     1
 71
     2
176
     1
 72
     2
176
     1
 73
     1
176
     1
 90
        2
176
     1
 40
-0.6
176
     1
 41
30.0
176
     1
 62
     5
 63
     7
421
 16777215
176
     1
 74
     1
176
     1
 91
        4
176
     1
 64
     7
176
     1
 65
   257
176
     1
 75
     1
176
     1
175
     1
176
     1
 42
1.0
176
     1
 92
        0
176
     1
 66
   257
176
     1
 43
1.0
176
     1
 76
     1
176
     1
 77
     6
176
     1
 78
     2
176
     1
 67
     7
176
     1
 79
     5
176
     1
170
     0
176
     1
171
     0
176
     1
290
     0
176
     1
 93
       13
176
     1
 44
0.0
176
     1
173
     0
176
     1
  0
VISUALSTYLE
  5
38
102
{ACAD_REACTORS
330
2A
102
}
330
2A
100
AcDbVisualStyle
  2
Linepattern
 70
    14
177
     2
291
     1
 71
     2
176
     1
 72
     2
176
     1
 73
     0
176
     1
 90
        0
176
     1
 40
-0.6
176
     1
 41
-30.0
176
     1
 62
     5
 63
     7
421
 16777215
176
     1
 74
     1
176
     1
 91
        4
176
     1
 64
     7
176
     1
 65
   257
176
     1
 75
     7
176
     1
175
     7
176
     1
 42
1.0
176
     1
 92
        8
176
     1
 66
     7
176
     1
 43
1.0
176
     1
 76
     1
176
     1
 77
     6
176
     1
 78
     2
176
     1
 67
     7
176
     1
 79
     5
176
     1
170
     0
176
     1
171
     0
176
     1
290
     0
176
     1
 93
        1
176
     1
 44
0.0
176
     1
173
     0
176
     1
  0
VISUALSTYLE
  5
33
102
{ACAD_REACTORS
330
2A
102
}
330
2A
100
AcDbVisualStyle
  2
Realistic
 70
     8
177
     2
291
     0
 71
     2
176
     1
 72
     2
176
     1
 73
     0
176
     1
 90
        0
176
     1
 40
-0.6
176
     1
 41
-30.0
176
     1
 62
     5
 63
     7
421
 16777215
176
     1
 74
     1
176
     1
 91
        0
176
     1
 64
     7
176
     1
 65
   257
176
     1
 75
     1
176
     1
175
     1
176
     1
 42
1.0
176
     1
 92
        8
176
     1
 66
     8
424
  7895160
176
     1
 43
1.0
176
     1
 76
     1
176
     1
 77
     6
176
     1
 78
     2
176
     1
 67
     7
176
     1
 79
     5
176
     1
170
     0
176
     1
171
     0
176
     1
290
     0
176
     1
 93
       13
176
     1
 44
0.0
176
     1
173
     0
176
     1
  0
VISUALSTYLE
  5
37
102
{ACAD_REACTORS
330
2A
102
}
330
2A
100
AcDbVisualStyle
  2
Thicken
 70
    13
177
     2
291
     1
 71
     2
176
     1
 72
     2
176
     1
 73
     0
176
     1
 90
        0
176
     1
 40
-0.6
176
     1
 41
-30.0
176
     1
 62
     5
 63
     7
421
 16777215
176
     1
 74
     1
176
     1
 91
        4
176
     1
 64
     7
176
     1
 65
   257
176
     1
 75
     1
176
     1
175
     1
176
     1
 42
1.0
176
     1
 92
       12
176
     1
 66
     7
176
     1
 43
1.0
176
     1
 76
     1
176
     1
 77
     6
176
     1
 78
     2
176
     1
 67
     7
176
     1
 79
     5
176
     1
170
     0
176
     1
171
     0
176
     1
290
     0
176
     1
 93
        1
176
     1
 44
0.0
176
     1
173
     0
176
     1
  0
ENDSEC
  0
EOF
